  0
SECTION
  2
HEADER
  9
$ACADVER
  1
AC1015
  9
$ACADMAINTVER
 70
     6
  9
$DWGCODEPAGE
  3
ANSI_1254
  9
$INSBASE
 10
0.0
 20
0.0
 30
0.0
  9
$EXTMIN
 10
0.0
 20
0.0
 30
0.0
  9
$EXTMAX
 10
279.4
 20
215.9
 30
0.0
  9
$LIMMIN
 10
0.0
 20
0.0
  9
$LIMMAX
 10
279.4
 20
215.9
  9
$ORTHOMODE
 70
     0
  9
$REGENMODE
 70
     1
  9
$FILLMODE
 70
     1
  9
$QTEXTMODE
 70
     0
  9
$MIRRTEXT
 70
     1
  9
$LTSCALE
 40
1.0
  9
$ATTMODE
 70
     1
  9
$TEXTSIZE
 40
3.5
  9
$TRACEWID
 40
1.0
  9
$TEXTSTYLE
  7
Standard
  9
$CLAYER
  8
0
  9
$CELTYPE
  6
ByLayer
  9
$CECOLOR
 62
   256
  9
$CELTSCALE
 40
1.0
  9
$DISPSILH
 70
     0
  9
$DIMSCALE
 40
1.0
  9
$DIMASZ
 40
3.5
  9
$DIMEXO
 40
1.0
  9
$DIMDLI
 40
3.75
  9
$DIMRND
 40
0.0
  9
$DIMDLE
 40
0.0
  9
$DIMEXE
 40
1.0
  9
$DIMTP
 40
0.0
  9
$DIMTM
 40
0.0
  9
$DIMTXT
 40
3.5
  9
$DIMCEN
 40
2.5
  9
$DIMTSZ
 40
0.0
  9
$DIMTOL
 70
     0
  9
$DIMLIM
 70
     0
  9
$DIMTIH
 70
     1
  9
$DIMTOH
 70
     1
  9
$DIMSE1
 70
     0
  9
$DIMSE2
 70
     0
  9
$DIMTAD
 70
     1
  9
$DIMZIN
 70
     0
  9
$DIMBLK
  1

  9
$DIMASO
 70
     1
  9
$DIMSHO
 70
     1
  9
$DIMPOST
  1

  9
$DIMAPOST
  1

  9
$DIMALT
 70
     0
  9
$DIMALTD
 70
     3
  9
$DIMALTF
 40
0.0393700787
  9
$DIMLFAC
 40
1.0
  9
$DIMTOFL
 70
     1
  9
$DIMTVP
 40
0.0
  9
$DIMTIX
 70
     0
  9
$DIMSOXD
 70
     0
  9
$DIMSAH
 70
     0
  9
$DIMBLK1
  1

  9
$DIMBLK2
  1

  9
$DIMSTYLE
  2
ISO-25
  9
$DIMCLRD
 70
     0
  9
$DIMCLRE
 70
     0
  9
$DIMCLRT
 70
     0
  9
$DIMTFAC
 40
1.0
  9
$DIMGAP
 40
1.524
  9
$DIMJUST
 70
     0
  9
$DIMSD1
 70
     0
  9
$DIMSD2
 70
     0
  9
$DIMTOLJ
 70
     0
  9
$DIMTZIN
 70
     0
  9
$DIMALTZ
 70
     0
  9
$DIMALTTZ
 70
     0
  9
$DIMUPT
 70
     0
  9
$DIMDEC
 70
     2
  9
$DIMTDEC
 70
     2
  9
$DIMALTU
 70
     2
  9
$DIMALTTD
 70
     3
  9
$DIMTXSTY
  7
Standard
  9
$DIMAUNIT
 70
     0
  9
$DIMADEC
 70
     2
  9
$DIMALTRND
 40
0.0
  9
$DIMAZIN
 70
     0
  9
$DIMDSEP
 70
    44
  9
$DIMATFIT
 70
     3
  9
$DIMFRAC
 70
     0
  9
$DIMLDRBLK
  1

  9
$DIMLUNIT
 70
     2
  9
$DIMLWD
 70
    -2
  9
$DIMLWE
 70
    -2
  9
$DIMTMOVE
 70
     0
  9
$LUNITS
 70
     2
  9
$LUPREC
 70
     2
  9
$SKETCHINC
 40
1.0
  9
$FILLETRAD
 40
10.0
  9
$AUNITS
 70
     0
  9
$AUPREC
 70
     2
  9
$MENU
  1
.
  9
$ELEVATION
 40
0.0
  9
$PELEVATION
 40
0.0
  9
$THICKNESS
 40
0.0
  9
$LIMCHECK
 70
     0
  9
$CHAMFERA
 40
0.0
  9
$CHAMFERB
 40
0.0
  9
$CHAMFERC
 40
0.0
  9
$CHAMFERD
 40
0.0
  9
$SKPOLY
 70
     0
  9
$TDCREATE
 40
2458985.682135845
  9
$TDUCREATE
 40
2458985.557135845
  9
$TDUPDATE
 40
2458985.682136123
  9
$TDUUPDATE
 40
2458985.557136123
  9
$TDINDWG
 40
0.0000000116
  9
$TDUSRTIMER
 40
0.0000000116
  9
$USRTIMER
 70
     1
  9
$ANGBASE
 50
0.0
  9
$ANGDIR
 70
     0
  9
$PDMODE
 70
     0
  9
$PDSIZE
 40
-1.0
  9
$PLINEWID
 40
0.0
  9
$SPLFRAME
 70
     0
  9
$SPLINETYPE
 70
     6
  9
$SPLINESEGS
 70
     8
  9
$HANDSEED
  5
CB
  9
$SURFTAB1
 70
     6
  9
$SURFTAB2
 70
     6
  9
$SURFTYPE
 70
     6
  9
$SURFU
 70
     6
  9
$SURFV
 70
     6
  9
$UCSBASE
  2

  9
$UCSNAME
  2

  9
$UCSORG
 10
0.0
 20
0.0
 30
0.0
  9
$UCSXDIR
 10
1.0
 20
0.0
 30
0.0
  9
$UCSYDIR
 10
0.0
 20
1.0
 30
0.0
  9
$UCSORTHOREF
  2

  9
$UCSORTHOVIEW
 70
     0
  9
$UCSORGTOP
 10
0.0
 20
0.0
 30
0.0
  9
$UCSORGBOTTOM
 10
0.0
 20
0.0
 30
0.0
  9
$UCSORGLEFT
 10
0.0
 20
0.0
 30
0.0
  9
$UCSORGRIGHT
 10
0.0
 20
0.0
 30
0.0
  9
$UCSORGFRONT
 10
0.0
 20
0.0
 30
0.0
  9
$UCSORGBACK
 10
0.0
 20
0.0
 30
0.0
  9
$PUCSBASE
  2

  9
$PUCSNAME
  2

  9
$PUCSORG
 10
0.0
 20
0.0
 30
0.0
  9
$PUCSXDIR
 10
1.0
 20
0.0
 30
0.0
  9
$PUCSYDIR
 10
0.0
 20
1.0
 30
0.0
  9
$PUCSORTHOREF
  2

  9
$PUCSORTHOVIEW
 70
     0
  9
$PUCSORGTOP
 10
0.0
 20
0.0
 30
0.0
  9
$PUCSORGBOTTOM
 10
0.0
 20
0.0
 30
0.0
  9
$PUCSORGLEFT
 10
0.0
 20
0.0
 30
0.0
  9
$PUCSORGRIGHT
 10
0.0
 20
0.0
 30
0.0
  9
$PUCSORGFRONT
 10
0.0
 20
0.0
 30
0.0
  9
$PUCSORGBACK
 10
0.0
 20
0.0
 30
0.0
  9
$USERI1
 70
     0
  9
$USERI2
 70
     0
  9
$USERI3
 70
     0
  9
$USERI4
 70
     0
  9
$USERI5
 70
     0
  9
$USERR1
 40
0.0
  9
$USERR2
 40
0.0
  9
$USERR3
 40
0.0
  9
$USERR4
 40
0.0
  9
$USERR5
 40
0.0
  9
$WORLDVIEW
 70
     1
  9
$SHADEDGE
 70
     3
  9
$SHADEDIF
 70
    70
  9
$TILEMODE
 70
     1
  9
$MAXACTVP
 70
    64
  9
$PINSBASE
 10
0.0
 20
0.0
 30
0.0
  9
$PLIMCHECK
 70
     0
  9
$PEXTMIN
 10
1.0000000000E+20
 20
1.0000000000E+20
 30
1.0000000000E+20
  9
$PEXTMAX
 10
-1.0000000000E+20
 20
-1.0000000000E+20
 30
-1.0000000000E+20
  9
$PLIMMIN
 10
0.0
 20
0.0
  9
$PLIMMAX
 10
420.0
 20
297.0
  9
$UNITMODE
 70
     0
  9
$VISRETAIN
 70
     1
  9
$PLINEGEN
 70
     0
  9
$PSLTSCALE
 70
     1
  9
$TREEDEPTH
 70
  3020
  9
$CMLSTYLE
  2
Standard
  9
$CMLJUST
 70
     0
  9
$CMLSCALE
 40
20.0
  9
$PROXYGRAPHICS
 70
     1
  9
$MEASUREMENT
 70
     1
  9
$CELWEIGHT
370
    -1
  9
$ENDCAPS
280
     0
  9
$JOINSTYLE
280
     0
  9
$LWDISPLAY
290
     1
  9
$INSUNITS
 70
     4
  9
$HYPERLINKBASE
  1

  9
$STYLESHEET
  1

  9
$XEDIT
290
     1
  9
$CEPSNTYPE
380
     0
  9
$PSTYLEMODE
290
     1
  9
$FINGERPRINTGUID
  2
{5e0bd50e-a61b-4ba2-884a-bc0ed8f11430}
  9
$VERSIONGUID
  2
{FAEB1C32-E019-11D5-929B-00C0DF256EC4}
  9
$EXTNAMES
290
     1
  9
$PSVPSCALE
 40
0.0
  9
$OLESTARTUP
290
     0
  0
ENDSEC
  0
SECTION
  2
CLASSES
  0
CLASS
  1
ACDBDICTIONARYWDFLT
  2
AcDbDictionaryWithDefault
  3
ObjectDBX Classes
 90
        0
280
     0
281
     0
  0
CLASS
  1
VISUALSTYLE
  2
AcDbVisualStyle
  3
ObjectDBX Classes
 90
     4095
280
     0
281
     0
  0
CLASS
  1
MATERIAL
  2
AcDbMaterial
  3
ObjectDBX Classes
 90
     1153
280
     0
281
     0
  0
CLASS
  1
SCALE
  2
AcDbScale
  3
ObjectDBX Classes
 90
     1153
280
     0
281
     0
  0
CLASS
  1
TABLESTYLE
  2
AcDbTableStyle
  3
ObjectDBX Classes
 90
     4095
280
     0
281
     0
  0
CLASS
  1
MLEADERSTYLE
  2
AcDbMLeaderStyle
  3
ACDB_MLEADERSTYLE_CLASS
 90
     4095
280
     0
281
     0
  0
CLASS
  1
SUN
  2
AcDbSun
  3
SCENEOE
 90
     1153
280
     0
281
     0
  0
CLASS
  1
ACDBPLACEHOLDER
  2
AcDbPlaceHolder
  3
ObjectDBX Classes
 90
        0
280
     0
281
     0
  0
CLASS
  1
LAYOUT
  2
AcDbLayout
  3
ObjectDBX Classes
 90
        0
280
     0
281
     0
  0
ENDSEC
  0
SECTION
  2
TABLES
  0
TABLE
  2
VPORT
  5
8
330
0
100
AcDbSymbolTable
 70
     1
  0
VPORT
  5
29
330
8
100
AcDbSymbolTableRecord
100
AcDbViewportTableRecord
  2
*Active
 70
     0
 10
0.0
 20
0.0
 11
1.0
 21
1.0
 12
139.7
 22
107.95
 13
0.0
 23
0.0
 14
10.0
 24
10.0
 15
10.0
 25
10.0
 16
0.0
 26
0.0
 36
1.0
 17
0.0
 27
0.0
 37
0.0
 40
215.9
 41
1.2941176471
 42
50.0
 43
0.0
 44
0.0
 50
0.0
 51
0.0
 71
     0
 72
  2000
 73
     1
 74
     3
 75
     0
 76
     0
 77
     0
 78
     0
281
     0
 65
     1
110
0.0
120
0.0
130
0.0
111
1.0
121
0.0
131
0.0
112
0.0
122
1.0
132
0.0
 79
     0
146
0.0
  0
ENDTAB
  0
TABLE
  2
LTYPE
  5
5
330
0
100
AcDbSymbolTable
 70
     6
  0
LTYPE
  5
14
330
5
100
AcDbSymbolTableRecord
100
AcDbLinetypeTableRecord
  2
ByBlock
 70
     0
  3

 72
    65
 73
     0
 40
0.0
  0
LTYPE
  5
15
330
5
100
AcDbSymbolTableRecord
100
AcDbLinetypeTableRecord
  2
ByLayer
 70
     0
  3

 72
    65
 73
     0
 40
0.0
  0
LTYPE
  5
16
330
5
100
AcDbSymbolTableRecord
100
AcDbLinetypeTableRecord
  2
Continuous
 70
     0
  3
Solid line
 72
    65
 73
     0
 40
0.0
  0
LTYPE
  5
6E
330
5
100
AcDbSymbolTableRecord
100
AcDbLinetypeTableRecord
  2
HIDDEN
 70
     0
  3
Hidden __ __ __ __ __ __ __ __ __ __ __ __ __ __
 72
    65
 73
     2
 40
1.905
 49
1.27
 74
     0
 49
-0.635
 74
     0
  0
LTYPE
  5
6F
330
5
100
AcDbSymbolTableRecord
100
AcDbLinetypeTableRecord
  2
PHANTOM
 70
     0
  3
Phantom ______  __  __  ______  __  __  ______
 72
    65
 73
     6
 40
12.7
 49
6.35
 74
     0
 49
-1.27
 74
     0
 49
1.27
 74
     0
 49
-1.27
 74
     0
 49
1.27
 74
     0
 49
-1.27
 74
     0
  0
LTYPE
  5
70
330
5
100
AcDbSymbolTableRecord
100
AcDbLinetypeTableRecord
  2
CENTER
 70
     0
  3
Center ____ _ ____ _ ____ _ ____ _ ____ _ ____
 72
    65
 73
     4
 40
10.16
 49
6.35
 74
     0
 49
-1.27
 74
     0
 49
1.27
 74
     0
 49
-1.27
 74
     0
  0
LTYPE
  5
71
330
5
100
AcDbSymbolTableRecord
100
AcDbLinetypeTableRecord
  2
CENTERX2
 70
     0
  3
Center (2x) ________  __  ________  __  _____
 72
    65
 73
     4
 40
20.32
 49
12.7
 74
     0
 49
-2.54
 74
     0
 49
2.54
 74
     0
 49
-2.54
 74
     0
  0
LTYPE
  5
72
330
5
100
AcDbSymbolTableRecord
100
AcDbLinetypeTableRecord
  2
DOT2
 70
     0
  3
Dot (.5x) ........................................
 72
    65
 73
     2
 40
0.635
 49
0.0
 74
     0
 49
-0.635
 74
     0
  0
ENDTAB
  0
TABLE
  2
LAYER
  5
2
330
0
100
AcDbSymbolTable
 70
    17
  0
LAYER
  5
10
330
2
100
AcDbSymbolTableRecord
100
AcDbLayerTableRecord
  2
0
 70
     0
 62
     7
  6
Continuous
370
    -3
390
F
  0
LAYER
  5
73
330
2
100
AcDbSymbolTableRecord
100
AcDbLayerTableRecord
  2
FORMAT
 70
     0
 62
     7
  6
Continuous
370
    -3
390
F
  0
LAYER
  5
74
330
2
100
AcDbSymbolTableRecord
100
AcDbLayerTableRecord
  2
YARDIMCI_GEOMETRI
 70
     0
 62
    -6
  6
Continuous
290
     0
370
    -3
390
F
  0
LAYER
  5
75
330
2
100
AcDbSymbolTableRecord
100
AcDbLayerTableRecord
  2
SAYFA_CERCEVESI
 70
     0
 62
     7
  6
Continuous
370
    25
390
F
  0
LAYER
  5
76
330
2
100
AcDbSymbolTableRecord
100
AcDbLayerTableRecord
  2
ANTET
 70
     0
 62
     7
  6
Continuous
370
    -3
390
F
  0
LAYER
  5
77
330
2
100
AcDbSymbolTableRecord
100
AcDbLayerTableRecord
  2
OLCU
 70
     0
 62
   150
  6
Continuous
370
    -3
390
F
  0
LAYER
  5
78
330
2
100
AcDbSymbolTableRecord
100
AcDbLayerTableRecord
  2
METIN
 70
     0
 62
    96
  6
Continuous
370
    -3
390
F
  0
LAYER
  5
79
330
2
100
AcDbSymbolTableRecord
100
AcDbLayerTableRecord
  2
BALON
 70
     0
 62
     5
  6
Continuous
370
    -3
390
F
  0
LAYER
  5
7A
330
2
100
AcDbSymbolTableRecord
100
AcDbLayerTableRecord
  2
VURGU
 70
     0
 62
     7
  6
Continuous
370
    -3
390
F
  0
LAYER
  5
7B
330
2
100
AcDbSymbolTableRecord
100
AcDbLayerTableRecord
  2
SILIK
 70
     0
 62
     7
  6
Continuous
370
    -3
390
F
  0
LAYER
  5
7C
330
2
100
AcDbSymbolTableRecord
100
AcDbLayerTableRecord
  2
MODEL
 70
     0
 62
     7
  6
Continuous
370
    -3
390
F
  0
LAYER
  5
7D
330
2
100
AcDbSymbolTableRecord
100
AcDbLayerTableRecord
  2
DETAYLANDıRMA
 70
     0
 62
   190
  6
Continuous
370
    -3
390
F
  0
LAYER
  5
7E
330
2
100
AcDbSymbolTableRecord
100
AcDbLayerTableRecord
  2
TOLERANS
 70
     0
 62
   230
  6
Continuous
370
    -3
390
F
  0
LAYER
  5
7F
330
2
100
AcDbSymbolTableRecord
100
AcDbLayerTableRecord
  2
MERKEZ_CIZGILERI
 70
     0
 62
    30
  6
Continuous
370
    -3
390
F
  0
LAYER
  5
80
330
2
100
AcDbSymbolTableRecord
100
AcDbLayerTableRecord
  2
KESIT-DETAY_CIZGILERI
 70
     0
 62
     7
  6
Continuous
370
    -3
390
F
  0
LAYER
  5
81
330
2
100
AcDbSymbolTableRecord
100
AcDbLayerTableRecord
  2
\U+041E\U+0421\U+0415\U+0412\U+042B\U+0415
 70
     0
 62
     7
  6
Continuous
370
    -3
390
F
  0
LAYER
  5
82
330
2
100
AcDbSymbolTableRecord
100
AcDbLayerTableRecord
  2
\U+0412\U+041E\U+0414\U+042F\U+041D\U+042B\U+0415_\U+0417\U+041D\U+0410\U+041A\U+0418
 70
     0
 62
    11
  6
Continuous
370
    -3
390
F
  0
ENDTAB
  0
TABLE
  2
STYLE
  5
3
330
0
100
AcDbSymbolTable
 70
     1
  0
STYLE
  5
11
330
3
100
AcDbSymbolTableRecord
100
AcDbTextStyleTableRecord
  2
Standard
 70
     0
 40
0.0
 41
1.0
 50
0.0
 71
     0
 42
3.5
  3
txt
  4

  0
ENDTAB
  0
TABLE
  2
VIEW
  5
6
330
0
100
AcDbSymbolTable
 70
     0
  0
ENDTAB
  0
TABLE
  2
UCS
  5
7
330
0
100
AcDbSymbolTable
 70
     0
  0
ENDTAB
  0
TABLE
  2
APPID
  5
9
330
0
100
AcDbSymbolTable
 70
     1
  0
APPID
  5
12
330
9
100
AcDbSymbolTableRecord
100
AcDbRegAppTableRecord
  2
ACAD
 70
     0
  0
ENDTAB
  0
TABLE
  2
DIMSTYLE
  5
A
330
0
100
AcDbSymbolTable
 70
     1
100
AcDbDimStyleTable
  0
DIMSTYLE
105
27
330
A
100
AcDbSymbolTableRecord
100
AcDbDimStyleTableRecord
  2
ISO-25
 70
     0
 41
2.5
 42
0.625
 43
3.75
 44
1.25
 73
     0
 74
     0
 77
     1
 78
     8
140
2.5
141
2.5
143
0.0393700787
147
0.625
171
     3
172
     1
178
     0
271
     2
272
     2
274
     3
278
    44
283
     0
284
     8
340
11
  0
ENDTAB
  0
TABLE
  2
BLOCK_RECORD
  5
1
330
0
100
AcDbSymbolTable
 70
     3
  0
BLOCK_RECORD
  5
1F
330
1
100
AcDbSymbolTableRecord
100
AcDbBlockTableRecord
  2
*Model_Space
340
22
  0
BLOCK_RECORD
  5
1B
330
1
100
AcDbSymbolTableRecord
100
AcDbBlockTableRecord
  2
*Paper_Space
340
1E
  0
BLOCK_RECORD
  5
23
330
1
100
AcDbSymbolTableRecord
100
AcDbBlockTableRecord
  2
*Paper_Space0
340
26
  0
BLOCK_RECORD
  5
88
330
1
100
AcDbSymbolTableRecord
100
AcDbBlockTableRecord
  2
SW_CENTERMARKSYMBOL_0
340
0
102
{BLKREFS
331
93
102
}
  0
BLOCK_RECORD
  5
B2
330
1
100
AcDbSymbolTableRecord
100
AcDbBlockTableRecord
  2
SW_CENTERMARKSYMBOL_1
340
0
102
{BLKREFS
331
BD
102
}
  0
ENDTAB
  0
ENDSEC
  0
SECTION
  2
BLOCKS
  0
BLOCK
  5
20
330
1F
100
AcDbEntity
  8
0
100
AcDbBlockBegin
  2
*Model_Space
 70
     0
 10
0.0
 20
0.0
 30
0.0
  3
*Model_Space
  1

  0
ENDBLK
  5
21
330
1F
100
AcDbEntity
  8
0
100
AcDbBlockEnd
  0
BLOCK
  5
1C
330
1B
100
AcDbEntity
 67
     1
  8
0
100
AcDbBlockBegin
  2
*Paper_Space
 70
     0
 10
0.0
 20
0.0
 30
0.0
  3
*Paper_Space
  1

  0
ENDBLK
  5
1D
330
1B
100
AcDbEntity
 67
     1
  8
0
100
AcDbBlockEnd
  0
BLOCK
  5
24
330
23
100
AcDbEntity
  8
0
100
AcDbBlockBegin
  2
*Paper_Space0
 70
     0
 10
0.0
 20
0.0
 30
0.0
  3
*Paper_Space0
  1

  0
ENDBLK
  5
25
330
23
100
AcDbEntity
  8
0
100
AcDbBlockEnd
  0
BLOCK
  5
89
330
88
100
AcDbEntity
  8
0
100
AcDbBlockBegin
  2
SW_CENTERMARKSYMBOL_0
 70
     0
 10
0.0
 20
0.0
 30
0.0
  3
SW_CENTERMARKSYMBOL_0
  1

  0
LINE
  5
8B
330
88
100
AcDbEntity
  8
FORMAT
 62
     0
100
AcDbLine
 10
0.0
 20
0.0
 30
0.0
 11
0.0
 21
2.5
 31
0.0
  0
LINE
  5
8C
330
88
100
AcDbEntity
  8
FORMAT
 62
     0
100
AcDbLine
 10
0.0
 20
0.0
 30
0.0
 11
-2.5
 21
0.0
 31
0.0
  0
LINE
  5
8D
330
88
100
AcDbEntity
  8
FORMAT
 62
     0
100
AcDbLine
 10
0.0
 20
0.0
 30
0.0
 11
0.0
 21
-2.5
 31
0.0
  0
LINE
  5
8E
330
88
100
AcDbEntity
  8
FORMAT
 62
     0
100
AcDbLine
 10
0.0
 20
0.0
 30
0.0
 11
2.5
 21
0.0
 31
0.0
  0
LINE
  5
8F
330
88
100
AcDbEntity
  8
FORMAT
 62
     0
100
AcDbLine
 10
0.0
 20
5.0
 30
0.0
 11
0.0
 21
40.0
 31
0.0
  0
LINE
  5
90
330
88
100
AcDbEntity
  8
FORMAT
 62
     0
100
AcDbLine
 10
-5.0
 20
0.0
 30
0.0
 11
-40.0
 21
0.0
 31
0.0
  0
LINE
  5
91
330
88
100
AcDbEntity
  8
FORMAT
 62
     0
100
AcDbLine
 10
0.0
 20
-5.0
 30
0.0
 11
0.0
 21
-40.0
 31
0.0
  0
LINE
  5
92
330
88
100
AcDbEntity
  8
FORMAT
 62
     0
100
AcDbLine
 10
5.0
 20
0.0
 30
0.0
 11
40.0
 21
0.0
 31
0.0
  0
ENDBLK
  5
8A
330
88
100
AcDbEntity
  8
0
100
AcDbBlockEnd
  0
BLOCK
  5
B3
330
B2
100
AcDbEntity
  8
0
100
AcDbBlockBegin
  2
SW_CENTERMARKSYMBOL_1
 70
     0
 10
0.0
 20
0.0
 30
0.0
  3
SW_CENTERMARKSYMBOL_1
  1

  0
LINE
  5
B5
330
B2
100
AcDbEntity
  8
FORMAT
 62
     0
100
AcDbLine
 10
0.0
 20
0.0
 30
0.0
 11
0.0
 21
2.5
 31
0.0
  0
LINE
  5
B6
330
B2
100
AcDbEntity
  8
FORMAT
 62
     0
100
AcDbLine
 10
0.0
 20
0.0
 30
0.0
 11
-2.5
 21
0.0
 31
0.0
  0
LINE
  5
B7
330
B2
100
AcDbEntity
  8
FORMAT
 62
     0
100
AcDbLine
 10
0.0
 20
0.0
 30
0.0
 11
0.0
 21
-2.5
 31
0.0
  0
LINE
  5
B8
330
B2
100
AcDbEntity
  8
FORMAT
 62
     0
100
AcDbLine
 10
0.0
 20
0.0
 30
0.0
 11
2.5
 21
0.0
 31
0.0
  0
LINE
  5
B9
330
B2
100
AcDbEntity
  8
FORMAT
 62
     0
100
AcDbLine
 10
0.0
 20
5.0
 30
0.0
 11
0.0
 21
18.5
 31
0.0
  0
LINE
  5
BA
330
B2
100
AcDbEntity
  8
FORMAT
 62
     0
100
AcDbLine
 10
-5.0
 20
0.0
 30
0.0
 11
-18.5
 21
0.0
 31
0.0
  0
LINE
  5
BB
330
B2
100
AcDbEntity
  8
FORMAT
 62
     0
100
AcDbLine
 10
0.0
 20
-5.0
 30
0.0
 11
0.0
 21
-18.5
 31
0.0
  0
LINE
  5
BC
330
B2
100
AcDbEntity
  8
FORMAT
 62
     0
100
AcDbLine
 10
5.0
 20
0.0
 30
0.0
 11
18.5
 21
0.0
 31
0.0
  0
ENDBLK
  5
B4
330
B2
100
AcDbEntity
  8
0
100
AcDbBlockEnd
  0
ENDSEC
  0
SECTION
  2
ENTITIES
  0
LINE
  5
83
330
1F
100
AcDbEntity
  8
0
  6
Continuous
 62
     7
370
    25
100
AcDbLine
 10
152.4700596803
 20
99.0029005303
 30
0.0
 11
218.5275510204
 21
99.0029005303
 31
0.0
  0
LINE
  5
84
330
1F
100
AcDbEntity
  8
0
  6
Continuous
 62
     7
370
    25
100
AcDbLine
 10
218.5275510204
 20
131.0029005303
 30
0.0
 11
152.4607890909
 21
131.0029005303
 31
0.0
  0
CIRCLE
  5
85
330
1F
100
AcDbEntity
  8
0
  6
Continuous
 62
     7
370
    25
100
AcDbCircle
 10
118.5275510204
 20
115.0029005303
 30
0.0
 40
30.7
  0
CIRCLE
  5
86
330
1F
100
AcDbEntity
  8
0
  6
Continuous
 62
     7
370
    25
100
AcDbCircle
 10
118.5275510204
 20
115.0029005303
 30
0.0
 40
37.50000000000001
  0
LINE
  5
87
330
1F
100
AcDbEntity
  8
0
  6
Continuous
 62
     7
370
    25
100
AcDbLine
 10
218.5275510204
 20
131.0029005303
 30
0.0
 11
218.5275510204
 21
99.0029005303
 31
0.0
  0
INSERT
  5
93
330
1F
100
AcDbEntity
  8
FORMAT
100
AcDbBlockReference
  2
SW_CENTERMARKSYMBOL_0
 10
118.5275510204
 20
115.0029005303
 30
0.0
  0
LINE
  5
94
330
1F
100
AcDbEntity
  8
0
  6
Continuous
 62
     7
370
    25
100
AcDbLine
 10
81.0275510204
 20
28.7848845089
 30
0.0
 11
81.0275510204
 21
-231.2151154911
 31
0.0
  0
LINE
  5
95
330
1F
100
AcDbEntity
  8
0
  6
Continuous
 62
     7
370
    25
100
AcDbLine
 10
156.0275510204
 20
-85.2501166692
 30
0.0
 11
156.0275510204
 21
28.7848845089
 31
0.0
  0
LINE
  5
96
330
1F
100
AcDbEntity
  8
0
  6
Continuous
 62
     7
370
    25
100
AcDbLine
 10
156.0275510204
 20
-231.2151154911
 30
0.0
 11
156.0275510204
 21
-117.2151154911
 31
0.0
  0
LINE
  5
97
330
1F
100
AcDbEntity
  8
0
  6
Continuous
 62
     7
370
    25
100
AcDbLine
 10
156.0275510204
 20
-117.2151154911
 30
0.0
 11
218.5275510204
 21
-117.2151154911
 31
0.0
  0
LINE
  5
98
330
1F
100
AcDbEntity
  8
0
  6
Continuous
 62
     7
370
    25
100
AcDbLine
 10
218.5275510204
 20
-85.2151154911
 30
0.0
 11
156.0126938034
 21
-85.2151154911
 31
0.0
  0
LWPOLYLINE
  5
99
330
1F
100
AcDbEntity
  8
0
  6
Continuous
 62
     7
370
    25
100
AcDbPolyline
 90
       22
 70
   128
 43
0.0
 10
156.012662231
 20
-85.2501166692
 10
155.9662174113
 20
-85.3593991363
 10
155.752292439
 20
-85.8713423671
 10
155.3934630086
 20
-86.7636288299
 10
154.9248385618
 20
-88.004796026
 10
154.3766764903
 20
-89.6000478222
 10
153.7846994063
 20
-91.580982821
 10
153.2223074255
 20
-93.9023785199
 10
152.7798394688
 20
-96.4224894935
 10
152.5028717446
 20
-99.1970921237
 10
152.446852395
 20
-101.7337731266
 10
152.5861037192
 20
-104.335213556
 10
152.8752679422
 20
-106.6479469573
 10
153.2975644786
 20
-108.8769583429
 10
153.8216040958
 20
-110.9834409613
 10
154.3949146212
 20
-112.8863524295
 10
154.974558561
 20
-114.5618139092
 10
155.4839174146
 20
-115.8958176902
 10
155.8333221241
 20
-116.7544384379
 10
156.0129914587
 20
-117.1809616902
 10
156.0275510204
 20
-117.2151154911
 10
156.0275510204
 20
-117.2151154911
  0
LINE
  5
9A
330
1F
100
AcDbEntity
  8
0
  6
Continuous
 62
     7
370
    25
100
AcDbLine
 10
156.0275510204
 20
-231.2151154911
 30
0.0
 11
81.0275510204
 21
-231.2151154911
 31
0.0
  0
LINE
  5
9B
330
1F
100
AcDbEntity
  8
0
  6
Continuous
 62
     7
370
    25
100
AcDbLine
 10
156.0275510204
 20
28.7848845089
 30
0.0
 11
81.0275510204
 21
28.7848845089
 31
0.0
  0
LINE
  5
9C
330
1F
100
AcDbEntity
  8
0
  6
Continuous
 62
     7
370
    25
100
AcDbLine
 10
218.5275510204
 20
-85.2151154911
 30
0.0
 11
218.5275510204
 21
-117.2151154911
 31
0.0
  0
LINE
  5
9D
330
1F
100
AcDbEntity
  8
0
  6
Continuous
 62
     7
370
    25
100
AcDbLine
 10
156.0275510204
 20
338.5531197698
 30
0.0
 11
156.0275510204
 21
452.5531197698
 31
0.0
  0
LINE
  5
9E
330
1F
100
AcDbEntity
  8
0
  6
Continuous
 62
     7
370
    25
100
AcDbLine
 10
156.0275510204
 20
192.5531197698
 30
0.0
 11
156.0275510204
 21
306.5881209479
 31
0.0
  0
LINE
  5
9F
330
1F
100
AcDbEntity
  8
0
  6
Continuous
 62
     7
370
    25
100
AcDbLine
 10
81.0275510204
 20
452.5531197698
 30
0.0
 11
81.0275510204
 21
192.5531197698
 31
0.0
  0
LINE
  5
A0
330
1F
100
AcDbEntity
  8
0
  6
Continuous
 62
     7
370
    25
100
AcDbLine
 10
156.0126938034
 20
306.5531197698
 30
0.0
 11
218.5275510204
 21
306.5531197698
 31
0.0
  0
LINE
  5
A1
330
1F
100
AcDbEntity
  8
0
  6
Continuous
 62
     7
370
    25
100
AcDbLine
 10
218.5275510204
 20
338.5531197698
 30
0.0
 11
156.0275510204
 21
338.5531197698
 31
0.0
  0
SPLINE
  5
A2
330
1F
100
AcDbEntity
  8
0
  6
Continuous
 62
     7
370
    25
100
AcDbSpline
210
0.0
220
0.0
230
1.0
 70
     8
 71
     3
 72
    27
 73
    23
 74
     0
 42
0.000000001
 43
0.00000001
 40
0.0
 40
0.0
 40
0.0
 40
0.0
 40
0.049764439593303
 40
0.1010470590314398
 40
0.1507926915338589
 40
0.2018610372164532
 40
0.2539947734750872
 40
0.3074926508809492
 40
0.3621926848499204
 40
0.4186354351271571
 40
0.4705181299176808
 40
0.5241824276658058
 40
0.5719965783282804
 40
0.6211482613532805
 40
0.6700996862777617
 40
0.7202526629785198
 40
0.7735027716678133
 40
0.8282155541421599
 40
0.8826528158303533
 40
0.9388884162051474
 40
0.9897456974588832
 40
1.0
 40
1.0
 40
1.0
 40
1.0
 10
156.027551020408
 20
338.5531197697509
 30
0.0
 10
156.0109181448907
 20
338.5143320531849
 30
0.0
 10
155.9771449693462
 20
338.4355733106456
 30
0.0
 10
155.7121170824456
 20
337.8051086242323
 30
0.0
 10
155.3153553627835
 20
336.817234412663
 30
0.0
 10
154.8085811901575
 20
335.4659285713033
 30
0.0
 10
154.2302433991836
 20
333.7553598670245
 30
0.0
 10
153.6333697871241
 20
331.7014321468842
 30
0.0
 10
153.0814462422277
 20
329.319049297451
 30
0.0
 10
152.665767660065
 20
326.7362974147931
 30
0.0
 10
152.4395612480367
 20
324.0292240873384
 30
0.0
 10
152.4290974969708
 20
321.4148318217902
 30
0.0
 10
152.6125416577796
 20
318.8877439128317
 30
0.0
 10
152.9468680196665
 20
316.5416368800327
 30
0.0
 10
153.4073427098449
 20
314.3204921151307
 30
0.0
 10
153.9558498362778
 20
312.2519412028378
 30
0.0
 10
154.549801280646
 20
310.3769247399172
 30
0.0
 10
155.1213532987884
 20
308.7898755650759
 30
0.0
 10
155.6077528612196
 20
307.5544208025393
 30
0.0
 10
155.9125281946809
 20
306.8222861687732
 30
0.0
 10
156.0451412461869
 20
306.5117533865808
 30
0.0
 10
156.0173290216438
 20
306.5771479729799
 30
0.0
 10
156.0126622310438
 20
306.5881209478539
 30
0.0
  0
LINE
  5
A3
330
1F
100
AcDbEntity
  8
0
  6
Continuous
 62
     7
370
    25
100
AcDbLine
 10
81.0275510204
 20
452.5531197698
 30
0.0
 11
156.0275510204
 21
452.5531197698
 31
0.0
  0
LINE
  5
A4
330
1F
100
AcDbEntity
  8
0
  6
Continuous
 62
     7
370
    25
100
AcDbLine
 10
81.0275510204
 20
192.5531197698
 30
0.0
 11
156.0275510204
 21
192.5531197698
 31
0.0
  0
LINE
  5
A5
330
1F
100
AcDbEntity
  8
0
  6
Continuous
 62
     7
370
    25
100
AcDbLine
 10
218.5275510204
 20
338.5531197698
 30
0.0
 11
218.5275510204
 21
306.5531197698
 31
0.0
  0
LINE
  5
A6
330
1F
100
AcDbEntity
  8
0
  6
Continuous
 62
     7
370
    25
100
AcDbLine
 10
255.7307673072
 20
77.5029005303
 30
0.0
 11
515.7307673072
 21
77.5029005303
 31
0.0
  0
LINE
  5
A7
330
1F
100
AcDbEntity
  8
0
  6
Continuous
 62
     7
370
    25
100
AcDbLine
 10
515.7307673072
 20
152.5029005303
 30
0.0
 11
255.7307673072
 21
152.5029005303
 31
0.0
  0
LINE
  5
A8
330
1F
100
AcDbEntity
  8
0
  6
Continuous
 62
     7
370
    25
100
AcDbLine
 10
515.7307673072
 20
152.5029005303
 30
0.0
 11
515.7307673072
 21
77.5029005303
 31
0.0
  0
LINE
  5
A9
330
1F
100
AcDbEntity
  8
0
  6
Continuous
 62
     7
370
    25
100
AcDbLine
 10
255.7307673072
 20
152.5029005303
 30
0.0
 11
255.7307673072
 21
77.5029005303
 31
0.0
  0
LINE
  5
AA
330
1F
100
AcDbEntity
  8
0
  6
Continuous
 62
     7
370
    25
100
AcDbLine
 10
32.9010264926
 20
152.5029005303
 30
0.0
 11
-227.0989735074
 21
152.5029005303
 31
0.0
  0
LINE
  5
AB
330
1F
100
AcDbEntity
  8
0
  6
Continuous
 62
     7
370
    25
100
AcDbLine
 10
-227.0989735074
 20
77.5029005303
 30
0.0
 11
32.9010264926
 21
77.5029005303
 31
0.0
  0
CIRCLE
  5
AC
330
1F
100
AcDbEntity
  8
0
  6
Continuous
 62
     7
370
    25
100
AcDbCircle
 10
-97.0989735074
 20
115.0029005303
 30
0.0
 40
13.0
  0
CIRCLE
  5
AD
330
1F
100
AcDbEntity
  8
0
  6
Continuous
 62
     7
370
    25
100
AcDbCircle
 10
-97.0989735074
 20
115.0029005303
 30
0.0
 40
16.0
  0
LINE
  5
AE
330
1F
100
AcDbEntity
  8
0
  6
Continuous
 62
     7
370
    25
100
AcDbLine
 10
-227.0989735074
 20
115.0029005303
 30
0.0
 11
-227.0989735074
 21
152.5029005303
 31
0.0
  0
LINE
  5
AF
330
1F
100
AcDbEntity
  8
0
  6
Continuous
 62
     7
370
    25
100
AcDbLine
 10
-227.0989735074
 20
77.5029005303
 30
0.0
 11
-227.0989735074
 21
115.0029005303
 31
0.0
  0
LINE
  5
B0
330
1F
100
AcDbEntity
  8
0
  6
Continuous
 62
     7
370
    25
100
AcDbLine
 10
32.9010264926
 20
115.0029005303
 30
0.0
 11
32.9010264926
 21
152.5029005303
 31
0.0
  0
LINE
  5
B1
330
1F
100
AcDbEntity
  8
0
  6
Continuous
 62
     7
370
    25
100
AcDbLine
 10
32.9010264926
 20
77.5029005303
 30
0.0
 11
32.9010264926
 21
115.0029005303
 31
0.0
  0
INSERT
  5
BD
330
1F
100
AcDbEntity
  8
FORMAT
100
AcDbBlockReference
  2
SW_CENTERMARKSYMBOL_1
 10
-97.0989735074
 20
115.0029005303
 30
0.0
  0
LINE
  5
BE
330
1F
100
AcDbEntity
  8
0
  6
Continuous
 62
     7
370
    25
100
AcDbLine
 10
495.1592575828
 20
-110.0752203887
 30
0.0
 11
437.991247949
 21
-77.0728309026
 31
0.0
  0
LINE
  5
BF
330
1F
100
AcDbEntity
  8
0
  6
Continuous
 62
     7
370
    25
100
AcDbLine
 10
405.988647182
 20
-58.5981227251
 30
0.0
 11
311.3114944743
 21
-3.9421658517
 31
0.0
  0
LINE
  5
C0
330
1F
100
AcDbEntity
  8
0
  6
Continuous
 62
     7
370
    25
100
AcDbLine
 10
273.8145420005
 20
-68.8958305303
 30
0.0
 11
457.662305109
 21
-175.0288850672
 31
0.0
  0
LINE
  5
C1
330
1F
100
AcDbEntity
  8
0
  6
Continuous
 62
     7
370
    25
100
AcDbLine
 10
417.7663768192
 20
-88.7484004844
 30
0.0
 11
463.1969277714
 21
-62.5219016664
 31
0.0
  0
LINE
  5
C2
330
1F
100
AcDbEntity
  8
0
  6
Continuous
 62
     7
370
    25
100
AcDbLine
 10
447.1982280492
 20
-34.8083380702
 30
0.0
 11
401.7685022987
 21
-61.0343605094
 31
0.0
  0
SPLINE
  5
C3
330
1F
100
AcDbEntity
  8
0
  6
Continuous
 62
     7
370
    25
100
AcDbSpline
210
0.0
220
0.0
230
1.0
 70
     8
 71
     3
 72
    22
 73
    18
 74
     0
 42
0.000000001
 43
0.00000001
 40
0.0
 40
0.0
 40
0.0
 40
0.0
 40
0.0663430842208271
 40
0.134710118357122
 40
0.2010281300477515
 40
0.2691095067562437
 40
0.3386112008096495
 40
0.4099314892601642
 40
0.4828544235912466
 40
0.5581006469165818
 40
0.6272676669457672
 40
0.698809817410062
 40
0.7625528887733082
 40
0.8280790812346778
 40
0.8933383011321605
 40
0.9601993606432442
 40
1.0
 40
1.0
 40
1.0
 40
1.0
 10
399.6896955871448
 20
-67.64660846819369
 30
0.0
 10
399.7053614252347
 20
-68.35854244726424
 30
0.0
 10
399.7371710242009
 20
-69.80412960543474
 30
0.0
 10
399.9955738671163
 20
-72.19638068592371
 30
0.0
 10
400.4135535040353
 20
-74.6853904275694
 30
0.0
 10
401.0107276297261
 20
-77.21323922553648
 30
0.0
 10
401.8113355708318
 20
-79.74885989348012
 30
0.0
 10
402.8416292456874
 20
-82.21433223592602
 30
0.0
 10
404.1359562000383
 20
-84.53059114979969
 30
0.0
 10
405.6683205768121
 20
-86.51916298914192
 30
0.0
 10
407.4225158221834
 20
-88.11063229166061
 30
0.0
 10
409.2639266053442
 20
-89.20027495898437
 30
0.0
 10
411.1800342411561
 20
-89.83739775200407
 30
0.0
 10
413.0773571788873
 20
-90.0552576590994
 30
0.0
 10
414.9661146180364
 20
-89.86124111029773
 30
0.0
 10
416.5570039107748
 20
-89.41792687717215
 30
0.0
 10
417.4183382924789
 20
-88.89629101810392
 30
0.0
 10
417.7397438153204
 20
-88.70164344617605
 30
0.0
  0
SPLINE
  5
C4
330
1F
100
AcDbEntity
  8
0
  6
Continuous
 62
     7
370
    25
100
AcDbSpline
210
0.0
220
0.0
230
1.0
 70
     8
 71
     3
 72
    13
 73
     9
 74
     0
 42
0.000000001
 43
0.00000001
 40
0.0
 40
0.0
 40
0.0
 40
0.0
 40
0.0414771667442849
 40
0.2590832911655154
 40
0.4831645477778438
 40
0.6968149934523803
 40
0.9176833691845754
 40
0.9999999999999999
 40
0.9999999999999999
 40
0.9999999999999999
 40
0.9999999999999999
 10
401.7842376885395
 20
-61.06346003487802
 30
0.0
 10
401.7205768833178
 20
-61.08837037230345
 30
0.0
 10
401.3229255433225
 20
-61.24397049426969
 30
0.0
 10
400.7916157632461
 20
-61.91604505392882
 30
0.0
 10
400.2088126468778
 20
-63.11622468782062
 30
0.0
 10
399.8449372868482
 20
-64.76320424558001
 30
0.0
 10
399.7029370322488
 20
-66.33285267070893
 30
0.0
 10
399.6925230489308
 20
-67.36608060402452
 30
0.0
 10
399.6896955871448
 20
-67.64660846819369
 30
0.0
  0
LWPOLYLINE
  5
C5
330
1F
100
AcDbEntity
  8
0
  6
Continuous
 62
     7
370
    25
100
AcDbPolyline
 90
       85
 70
   128
 43
0.0
 10
319.0795225319
 20
-21.1113460943
 10
319.0053770078
 20
-18.8658929709
 10
318.7833550875
 20
-16.7186039321
 10
318.4146984076
 20
-14.6814874892
 10
317.9014686457
 20
-12.7659360237
 10
317.2465359909
 20
-10.9826620764
 10
316.4535630923
 20
-9.3416384386
 10
315.526984576
 20
-7.8520423801
 10
314.4719822448
 20
-6.5222043264
 10
313.2944560998
 20
-5.3595612712
 10
312.0009913448
 20
-4.3706151861
 10
310.5988215595
 20
-3.5608966588
 10
309.0957882459
 20
-2.9349339638
 10
307.5002969762
 20
-2.4962277384
 10
305.8212703846
 20
-2.2472314056
 10
304.068098269
 20
-2.1893374541
 10
302.2505850789
 20
-2.3228696503
 10
300.3788950855
 20
-2.6470812279
 10
298.4634955383
 20
-3.1601590644
 10
296.5150981285
 20
-3.8592338203
 10
294.5445990849
 20
-4.740395986
 10
292.5630182374
 20
-5.7987177453
 10
290.5814373899
 20
-7.0282805335
 10
288.6109383463
 20
-8.4222081369
 10
286.6625409365
 20
-9.9727051468
 10
284.7471413893
 20
-11.6711005551
 10
282.8754513958
 20
-13.5078962456
 10
281.0579382058
 20
-15.4728201118
 10
279.3047660901
 20
-17.5548835023
 10
277.6257394986
 20
-19.7424426742
 10
276.0302482288
 20
-22.0232639092
 10
274.5272149153
 20
-24.3845919297
 10
273.1250451299
 20
-26.8132212317
 10
271.8315803749
 20
-29.2955699349
 10
270.65405423
 20
-31.8177557384
 10
269.5990518988
 20
-34.3656735561
 10
268.6724733824
 20
-36.9250743981
 10
267.8795004838
 20
-39.4816450567
 10
267.2245678291
 20
-42.0210881517
 10
266.7113380672
 20
-44.5292020872
 10
266.3426813873
 20
-46.9919604727
 10
266.1206594669
 20
-49.3955905644
 10
266.0465139429
 20
-51.7266502877
 10
266.1206594669
 20
-53.9721034111
 10
266.3426813873
 20
-56.1193924499
 10
266.7113380672
 20
-58.1565088928
 10
267.2245678291
 20
-60.0720603583
 10
267.8795004838
 20
-61.8553343056
 10
268.6724733824
 20
-63.4963579434
 10
269.5990518988
 20
-64.9859540018
 10
270.65405423
 20
-66.3157920556
 10
271.8315803749
 20
-67.4784351108
 10
273.1250451299
 20
-68.4673811958
 10
274.5272149153
 20
-69.2770997231
 10
276.0302482288
 20
-69.9030624181
 10
277.6257394986
 20
-70.3417686436
 10
279.3047660901
 20
-70.5907649763
 10
281.0579382058
 20
-70.6486589278
 10
282.8754513958
 20
-70.5151267317
 10
284.7471413893
 20
-70.190915154
 10
286.6625409365
 20
-69.6778373176
 10
288.6109383463
 20
-68.9787625617
 10
290.5814373899
 20
-68.097600396
 10
292.5630182374
 20
-67.0392786367
 10
294.5445990849
 20
-65.8097158484
 10
296.5150981285
 20
-64.415788245
 10
298.4634955383
 20
-62.8652912351
 10
300.3788950855
 20
-61.1668958269
 10
302.2505850789
 20
-59.3301001364
 10
304.068098269
 20
-57.3651762702
 10
305.8212703846
 20
-55.2831128796
 10
307.5002969762
 20
-53.0955537077
 10
309.0957882459
 20
-50.8147324728
 10
310.5988215595
 20
-48.4534044522
 10
312.0009913448
 20
-46.0247751503
 10
313.2944560998
 20
-43.5424264471
 10
314.4719822448
 20
-41.0202406436
 10
315.526984576
 20
-38.4723228258
 10
316.4535630923
 20
-35.9129219838
 10
317.2465359909
 20
-33.3563513252
 10
317.9014686457
 20
-30.8169082302
 10
318.4146984076
 20
-28.3087942947
 10
318.7833550875
 20
-25.8460359092
 10
319.0053770078
 20
-23.4424058176
 10
319.0795225319
 20
-21.1113460943
  0
LWPOLYLINE
  5
C6
330
1F
100
AcDbEntity
  8
0
  6
Continuous
 62
     7
370
    25
100
AcDbPolyline
 90
       12
 70
   128
 43
0.0
 10
502.9272856404
 20
-127.2444006313
 10
502.8531401163
 20
-124.9989475078
 10
502.631118196
 20
-122.851658469
 10
502.2624615161
 20
-120.8145420261
 10
501.7492317542
 20
-118.8989905606
 10
501.0942990994
 20
-117.1157166133
 10
500.3013262008
 20
-115.4746929755
 10
499.3747476845
 20
-113.9850969171
 10
498.3197453533
 20
-112.6552588633
 10
497.1422192083
 20
-111.4926158081
 10
495.8487544533
 20
-110.5036697231
 10
495.1592575828
 20
-110.0752203887
  0
LWPOLYLINE
  5
C7
330
1F
100
AcDbEntity
  8
0
  6
Continuous
 62
     7
370
    25
100
AcDbPolyline
 90
       33
 70
   128
 43
0.0
 10
457.662305109
 20
-175.0288850672
 10
458.3749780238
 20
-175.4101542601
 10
459.8780113373
 20
-176.0361169551
 10
461.4735026071
 20
-176.4748231805
 10
463.1525291986
 20
-176.7238195133
 10
464.9057013143
 20
-176.7817134648
 10
466.7232145043
 20
-176.6481812686
 10
468.5949044978
 20
-176.323969691
 10
470.510304045
 20
-175.8108918545
 10
472.4587014548
 20
-175.1118170986
 10
474.4292004984
 20
-174.2306549329
 10
476.4107813459
 20
-173.1723331736
 10
478.3923621934
 20
-171.9427703854
 10
480.362861237
 20
-170.548842782
 10
482.3112586468
 20
-168.9983457721
 10
484.226658194
 20
-167.2999503638
 10
486.0983481875
 20
-165.4631546733
 10
487.9158613775
 20
-163.4982308071
 10
489.6690334931
 20
-161.4161674166
 10
491.3480600847
 20
-159.2286082447
 10
492.9435513544
 20
-156.9477870097
 10
494.446584668
 20
-154.5864589892
 10
495.8487544533
 20
-152.1578296872
 10
497.1422192083
 20
-149.675480984
 10
498.3197453533
 20
-147.1532951805
 10
499.3747476845
 20
-144.6053773628
 10
500.3013262008
 20
-142.0459765208
 10
501.0942990994
 20
-139.4894058622
 10
501.7492317542
 20
-136.9499627672
 10
502.2624615161
 20
-134.4418488317
 10
502.631118196
 20
-131.9790904462
 10
502.8531401163
 20
-129.5754603545
 10
502.9272856404
 20
-127.2444006313
  0
LWPOLYLINE
  5
C8
330
1F
100
AcDbEntity
  8
0
  6
Continuous
 62
     7
370
    25
100
AcDbPolyline
 90
       77
 70
   128
 43
0.0
 10
314.2711964198
 20
-23.8871336745
 10
314.1970519854
 20
-21.8598535874
 10
313.9751251639
 20
-19.9320272208
 10
313.6069319405
 20
-18.1168235834
 10
313.0949874482
 20
-16.4266423568
 10
312.4427887871
 20
-14.8730291925
 10
311.6547911353
 20
-13.4665968438
 10
310.7363773159
 20
-12.2169526697
 10
309.6938210263
 20
-11.1326330071
 10
308.5342439833
 20
-10.2210448587
 10
307.2655672739
 20
-9.488415296
 10
305.8964572464
 20
-8.9397489217
 10
304.4362663105
 20
-8.5787936834
 10
302.8949690509
 20
-8.4080152716
 10
301.2830940908
 20
-8.4285802759
 10
299.6116521706
 20
-8.6403482164
 10
297.8920609334
 20
-9.0418725035
 10
296.1360669311
 20
-9.630410319
 10
294.3556653831
 20
-10.401941353
 10
292.5630182374
 20
-11.3511952661
 10
290.7703710917
 20
-12.4716876916
 10
288.9899695437
 20
-13.7557645301
 10
287.2339755413
 20
-15.1946542347
 10
285.5143843041
 20
-16.7785277297
 10
283.842942384
 20
-18.4965655532
 10
282.2310674239
 20
-20.3370317646
 10
280.6897701643
 20
-22.2873541137
 10
279.2295792284
 20
-24.3342099211
 10
277.8604692009
 20
-26.4636170862
 10
276.5917924914
 20
-28.6610295989
 10
275.4322154484
 20
-30.9114369035
 10
274.3896591589
 20
-33.1994664364
 10
273.4712453394
 20
-35.5094886356
 10
272.6832476876
 20
-37.8257237074
 10
272.0310490265
 20
-40.1323494175
 10
271.5191045343
 20
-42.4136091734
 10
271.1509113109
 20
-44.6539196579
 10
270.9289844894
 20
-46.8379772786
 10
270.854840055
 20
-48.9508627075
 10
270.9289844894
 20
-50.9781427945
 10
271.1509113109
 20
-52.9059691612
 10
271.5191045343
 20
-54.7211727985
 10
272.0310490265
 20
-56.4113540252
 10
272.6832476876
 20
-57.9649671895
 10
273.4712453394
 20
-59.3713995382
 10
274.3896591589
 20
-60.6210437122
 10
275.4322154484
 20
-61.7053633749
 10
276.5917924914
 20
-62.6169515232
 10
277.8604692009
 20
-63.349581086
 10
279.2295792284
 20
-63.8982474603
 10
280.6897701643
 20
-64.2592026985
 10
282.2310674239
 20
-64.4299811103
 10
283.842942384
 20
-64.4094161061
 10
285.5143843041
 20
-64.1976481655
 10
287.2339755413
 20
-63.7961238785
 10
288.9899695437
 20
-63.207586063
 10
290.7703710917
 20
-62.436055029
 10
292.5630182374
 20
-61.4868011159
 10
294.3556653831
 20
-60.3663086904
 10
296.1360669311
 20
-59.0822318519
 10
297.8920609334
 20
-57.6433421473
 10
299.6116521706
 20
-56.0594686522
 10
301.2830940908
 20
-54.3414308288
 10
302.8949690509
 20
-52.5009646173
 10
304.4362663105
 20
-50.5506422683
 10
305.8964572464
 20
-48.5037864608
 10
307.2655672739
 20
-46.3743792957
 10
308.5342439833
 20
-44.1769667831
 10
309.6938210263
 20
-41.9265594784
 10
310.7363773159
 20
-39.6385299456
 10
311.6547911353
 20
-37.3285077463
 10
312.4427887871
 20
-35.0122726746
 10
313.0949874482
 20
-32.7056469645
 10
313.6069319405
 20
-30.4243872086
 10
313.9751251639
 20
-28.1840767241
 10
314.1970519854
 20
-26.0000191034
 10
314.2711964198
 20
-23.8871336745
  0
LWPOLYLINE
  5
C9
330
1F
100
AcDbEntity
  8
0
  6
Continuous
 62
     7
370
    25
100
AcDbPolyline
 90
       50
 70
   128
 43
0.0
 10
464.3899660657
 20
-53.9717725952
 10
464.314496686
 20
-52.5707850711
 10
464.0893277521
 20
-51.1056666324
 10
463.7181565316
 20
-49.6004744834
 10
463.2070776457
 20
-48.0799238373
 10
462.5644829955
 20
-46.568982094
 10
461.8009239676
 20
-45.0924588749
 10
460.9289381799
 20
-43.6745986506
 10
459.9628436151
 20
-42.3386826467
 10
458.9185035191
 20
-41.1066465671
 10
457.8130659275
 20
-39.9987204102
 10
456.664682095
 20
-39.0330962927
 10
455.4922084523
 20
-38.225629736
 10
454.3148969843
 20
-37.5895793188
 10
453.1520791127
 20
-37.1353889711
 10
452.0228482747
 20
-36.870516486
 10
450.9457464096
 20
-36.7993110624
 10
449.9384595003
 20
-36.9229418913
 10
449.0175271698
 20
-37.239378958
 10
448.1980711016
 20
-37.7434263745
 10
447.4935467417
 20
-38.4268076962
 10
446.9155223606
 20
-39.2783018208
 10
446.4734891026
 20
-40.2839272382
 10
446.1747051417
 20
-41.4271716069
 10
446.0240765022
 20
-42.6892628859
 10
446.0240765022
 20
-44.0494775714
 10
446.1747051417
 20
-45.4854809757
 10
446.4734891026
 20
-46.9736939628
 10
446.9155223606
 20
-48.4896801165
 10
447.4935467417
 20
-50.0085469861
 10
448.1980711016
 20
-51.5053548195
 10
449.0175271698
 20
-52.9555260735
 10
449.9384595003
 20
-54.3352489763
 10
450.9457464096
 20
-55.6218685159
 10
452.0228482747
 20
-56.794258435
 10
453.1520791127
 20
-57.8331681236
 10
454.3148969843
 20
-58.7215387133
 10
455.4922084523
 20
-59.4447831836
 10
456.664682095
 20
-59.9910258803
 10
457.8130659275
 20
-60.3512975134
 10
458.9185035191
 20
-60.5196824326
 10
459.9628436151
 20
-60.4934157623
 10
460.9289381799
 20
-60.2729288004
 10
461.8009239676
 20
-59.8618419367
 10
462.5644829955
 20
-59.2669052063
 10
463.2070776457
 20
-58.4978874537
 10
463.7181565316
 20
-57.5674159291
 10
464.0893277521
 20
-56.4907689494
 10
464.314496686
 20
-55.2856250281
 10
464.3899660657
 20
-53.9717725952
  0
LWPOLYLINE
  5
CA
330
1F
100
AcDbEntity
  8
0
  6
Continuous
 62
     7
370
    25
100
AcDbPolyline
 90
       56
 70
   128
 43
0.0
 10
466.5112864093
 20
-55.1963847629
 10
466.4375406631
 20
-53.6645540357
 10
466.2172648131
 20
-52.0675480385
 10
465.8533304919
 20
-50.4261861868
 10
465.3504821399
 20
-48.7618661424
 10
464.7152751545
 20
-47.0962848624
 10
463.95599043
 20
-45.4511557458
 10
463.082526404
 20
-43.8479255668
 10
462.106270016
 20
-42.3074948824
 10
461.0399482609
 20
-40.8499455625
 10
459.8974622735
 20
-39.4942789914
 10
458.6937061059
 20
-38.2581683561
 10
457.4443725606
 20
-37.1577282491
 10
456.165748611
 20
-36.2073045902
 10
454.8745030757
 20
-35.4192876053
 10
453.587469315
 20
-34.8039503007
 10
452.3214257821
 20
-34.3693145394
 10
451.0928772908
 20
-34.1210464632
 10
449.9178398493
 20
-34.0623826261
 10
448.8116318678
 20
-34.194087801
 10
447.788674459
 20
-34.5144450095
 10
446.8623034371
 20
-35.0192779054
 10
446.0445954652
 20
-35.7020052199
 10
445.3462106171
 20
-36.5537265584
 10
444.7762534074
 20
-37.5633384307
 10
444.3421541
 20
-38.717679002
 10
444.0495718432
 20
-40.0016996776
 10
443.9023208941
 20
-41.3986612845
 10
443.9023208941
 20
-42.8903522916
 10
444.0495718432
 20
-44.4573262254
 10
444.3421541
 20
-46.0791551843
 10
444.7762534074
 20
-47.7346961476
 10
445.3462106171
 20
-49.4023666071
 10
446.0445954652
 20
-51.0604259278
 10
446.8623034371
 20
-52.6872587709
 10
447.788674459
 20
-54.2616568823
 10
448.8116318678
 20
-55.7630955749
 10
449.9178398493
 20
-57.1720012993
 10
451.0928772908
 20
-58.4700068145
 10
452.3214257821
 20
-59.6401906339
 10
453.587469315
 20
-60.6672976215
 10
454.8745030757
 20
-61.5379378672
 10
456.165748611
 20
-62.2407612439
 10
457.4443725606
 20
-62.7666053739
 10
458.6937061059
 20
-63.1086150749
 10
459.8974622735
 20
-63.2623317275
 10
461.0399482609
 20
-63.2257513999
 10
462.106270016
 20
-62.9993509726
 10
463.082526404
 20
-62.5860819216
 10
463.95599043
 20
-61.9913318408
 10
464.7152751545
 20
-61.2228542071
 10
465.3504821399
 20
-60.2906673018
 10
465.8533304919
 20
-59.2069236066
 10
466.2172648131
 20
-57.9857513782
 10
466.4375406631
 20
-56.6430704639
 10
466.5112864093
 20
-55.1963847629
  0
ENDSEC
  0
SECTION
  2
OBJECTS
  0
DICTIONARY
  5
C
330
0
100
AcDbDictionary
281
     1
  3
ACAD_GROUP
350
D
  3
ACAD_LAYOUT
350
1A
  3
ACAD_MLINESTYLE
350
17
  3
ACAD_PLOTSETTINGS
350
19
  3
ACAD_PLOTSTYLENAME
350
E
  3
ACAD_SCALELIST
350
47
  0
DICTIONARY
  5
D
102
{ACAD_REACTORS
330
C
102
}
330
C
100
AcDbDictionary
281
     1
  0
DICTIONARY
  5
1A
102
{ACAD_REACTORS
330
C
102
}
330
C
100
AcDbDictionary
281
     1
  3
Layout1
350
1E
  3
Layout2
350
26
  3
Model
350
22
  0
DICTIONARY
  5
17
102
{ACAD_REACTORS
330
C
102
}
330
C
100
AcDbDictionary
281
     1
  3
Standard
350
18
  0
DICTIONARY
  5
19
102
{ACAD_REACTORS
330
C
102
}
330
C
100
AcDbDictionary
281
     1
  0
ACDBDICTIONARYWDFLT
  5
E
102
{ACAD_REACTORS
330
C
102
}
330
C
100
AcDbDictionary
281
     1
  3
Normal
350
F
100
AcDbDictionaryWithDefault
340
F
  0
DICTIONARY
  5
47
102
{ACAD_REACTORS
330
C
102
}
330
C
100
AcDbDictionary
281
     1
  3
A0
350
48
  3
A1
350
49
  3
A2
350
4A
  3
A3
350
4B
  3
A4
350
4C
  3
A5
350
4D
  3
A6
350
4E
  3
A7
350
4F
  3
A8
350
50
  3
A9
350
51
  3
B0
350
52
  3
B1
350
53
  3
B2
350
54
  3
B3
350
55
  3
B4
350
56
  3
B5
350
57
  3
B6
350
58
  3
B7
350
59
  3
B8
350
5A
  3
B9
350
5B
  3
C0
350
5C
  3
C1
350
5D
  3
C2
350
5E
  3
C3
350
5F
  3
C4
350
60
  3
C5
350
61
  3
C6
350
62
  3
C7
350
63
  3
C8
350
64
  3
C9
350
65
  3
D0
350
66
  3
D1
350
67
  3
D2
350
68
  0
LAYOUT
  5
1E
102
{ACAD_REACTORS
330
1A
102
}
330
1A
100
AcDbPlotSettings
  1

  2
none_device
  4

  6

 40
0.0
 41
0.0
 42
0.0
 43
0.0
 44
0.0
 45
0.0
 46
0.0
 47
0.0
 48
0.0
 49
0.0
140
0.0
141
0.0
142
1.0
143
1.0
 70
   688
 72
     1
 73
     0
 74
     5
  7

 75
    16
147
1.0
148
0.0
149
0.0
100
AcDbLayout
  1
Layout1
 70
     1
 71
     1
 10
0.0
 20
0.0
 11
420.0
 21
297.0
 12
0.0
 22
0.0
 32
0.0
 14
1.0000000000E+20
 24
1.0000000000E+20
 34
1.0000000000E+20
 15
-1.0000000000E+20
 25
-1.0000000000E+20
 35
-1.0000000000E+20
146
0.0
 13
0.0
 23
0.0
 33
0.0
 16
1.0
 26
0.0
 36
0.0
 17
0.0
 27
1.0
 37
0.0
 76
     0
330
1B
  0
LAYOUT
  5
26
102
{ACAD_REACTORS
330
1A
102
}
330
1A
100
AcDbPlotSettings
  1

  2
none_device
  4

  6

 40
0.0
 41
0.0
 42
0.0
 43
0.0
 44
0.0
 45
0.0
 46
0.0
 47
0.0
 48
0.0
 49
0.0
140
0.0
141
0.0
142
1.0
143
1.0
 70
   688
 72
     1
 73
     0
 74
     5
  7

 75
    16
147
1.0
148
0.0
149
0.0
100
AcDbLayout
  1
Layout2
 70
     1
 71
     2
 10
0.0
 20
0.0
 11
0.0
 21
0.0
 12
0.0
 22
0.0
 32
0.0
 14
0.0
 24
0.0
 34
0.0
 15
0.0
 25
0.0
 35
0.0
146
0.0
 13
0.0
 23
0.0
 33
0.0
 16
1.0
 26
0.0
 36
0.0
 17
0.0
 27
1.0
 37
0.0
 76
     0
330
23
  0
LAYOUT
  5
22
102
{ACAD_REACTORS
330
1A
102
}
330
1A
100
AcDbPlotSettings
  1

  2
none_device
  4
Letter_(8.50_x_11.00_Inches)
  6

 40
6.35
 41
6.35
 42
6.35000508
 43
6.35000508
 44
215.9
 45
279.4
 46
0.0
 47
0.0
 48
0.0
 49
0.0
140
0.0
141
0.0
142
1.0
143
1.0
 70
  1712
 72
     1
 73
     0
 74
     0
  7

 75
     0
147
1.0
148
0.0
149
0.0
100
AcDbLayout
  1
Model
 70
     1
 71
     0
 10
0.0
 20
0.0
 11
279.4
 21
215.9
 12
0.0
 22
0.0
 32
0.0
 14
0.0
 24
0.0
 34
0.0
 15
279.4
 25
215.9
 35
0.0
146
0.0
 13
0.0
 23
0.0
 33
0.0
 16
1.0
 26
0.0
 36
0.0
 17
0.0
 27
1.0
 37
0.0
 76
     0
330
1F
331
29
  0
MLINESTYLE
  5
18
102
{ACAD_REACTORS
330
17
102
}
330
17
100
AcDbMlineStyle
  2
Standard
 70
     0
  3

 62
   256
 51
90.0
 52
90.0
 71
     2
 49
0.5
 62
   256
  6
BYLAYER
 49
-0.5
 62
   256
  6
BYLAYER
  0
ACDBPLACEHOLDER
  5
F
102
{ACAD_REACTORS
330
E
102
}
330
E
  0
SCALE
  5
48
102
{ACAD_REACTORS
330
47
102
}
330
47
100
AcDbScale
 70
     0
300
1:1
140
1.0
141
1.0
290
     1
  0
SCALE
  5
49
102
{ACAD_REACTORS
330
47
102
}
330
47
100
AcDbScale
 70
     0
300
1:2
140
1.0
141
2.0
290
     0
  0
SCALE
  5
4A
102
{ACAD_REACTORS
330
47
102
}
330
47
100
AcDbScale
 70
     0
300
1:4
140
1.0
141
4.0
290
     0
  0
SCALE
  5
4B
102
{ACAD_REACTORS
330
47
102
}
330
47
100
AcDbScale
 70
     0
300
1:5
140
1.0
141
5.0
290
     0
  0
SCALE
  5
4C
102
{ACAD_REACTORS
330
47
102
}
330
47
100
AcDbScale
 70
     0
300
1:8
140
1.0
141
8.0
290
     0
  0
SCALE
  5
4D
102
{ACAD_REACTORS
330
47
102
}
330
47
100
AcDbScale
 70
     0
300
1:10
140
1.0
141
10.0
290
     0
  0
SCALE
  5
4E
102
{ACAD_REACTORS
330
47
102
}
330
47
100
AcDbScale
 70
     0
300
1:16
140
1.0
141
16.0
290
     0
  0
SCALE
  5
4F
102
{ACAD_REACTORS
330
47
102
}
330
47
100
AcDbScale
 70
     0
300
1:20
140
1.0
141
20.0
290
     0
  0
SCALE
  5
50
102
{ACAD_REACTORS
330
47
102
}
330
47
100
AcDbScale
 70
     0
300
1:30
140
1.0
141
30.0
290
     0
  0
SCALE
  5
51
102
{ACAD_REACTORS
330
47
102
}
330
47
100
AcDbScale
 70
     0
300
1:40
140
1.0
141
40.0
290
     0
  0
SCALE
  5
52
102
{ACAD_REACTORS
330
47
102
}
330
47
100
AcDbScale
 70
     0
300
1:50
140
1.0
141
50.0
290
     0
  0
SCALE
  5
53
102
{ACAD_REACTORS
330
47
102
}
330
47
100
AcDbScale
 70
     0
300
1:100
140
1.0
141
100.0
290
     0
  0
SCALE
  5
54
102
{ACAD_REACTORS
330
47
102
}
330
47
100
AcDbScale
 70
     0
300
2:1
140
2.0
141
1.0
290
     0
  0
SCALE
  5
55
102
{ACAD_REACTORS
330
47
102
}
330
47
100
AcDbScale
 70
     0
300
4:1
140
4.0
141
1.0
290
     0
  0
SCALE
  5
56
102
{ACAD_REACTORS
330
47
102
}
330
47
100
AcDbScale
 70
     0
300
8:1
140
8.0
141
1.0
290
     0
  0
SCALE
  5
57
102
{ACAD_REACTORS
330
47
102
}
330
47
100
AcDbScale
 70
     0
300
10:1
140
10.0
141
1.0
290
     0
  0
SCALE
  5
58
102
{ACAD_REACTORS
330
47
102
}
330
47
100
AcDbScale
 70
     0
300
100:1
140
100.0
141
1.0
290
     0
  0
SCALE
  5
59
102
{ACAD_REACTORS
330
47
102
}
330
47
100
AcDbScale
 70
     0
300
1/128" = 1'-0"
140
0.0078125
141
12.0
290
     0
  0
SCALE
  5
5A
102
{ACAD_REACTORS
330
47
102
}
330
47
100
AcDbScale
 70
     0
300
1/64" = 1'-0"
140
0.015625
141
12.0
290
     0
  0
SCALE
  5
5B
102
{ACAD_REACTORS
330
47
102
}
330
47
100
AcDbScale
 70
     0
300
1/32" = 1'-0"
140
0.03125
141
12.0
290
     0
  0
SCALE
  5
5C
102
{ACAD_REACTORS
330
47
102
}
330
47
100
AcDbScale
 70
     0
300
1/16" = 1'-0"
140
0.0625
141
12.0
290
     0
  0
SCALE
  5
5D
102
{ACAD_REACTORS
330
47
102
}
330
47
100
AcDbScale
 70
     0
300
3/32" = 1'-0"
140
0.09375
141
12.0
290
     0
  0
SCALE
  5
5E
102
{ACAD_REACTORS
330
47
102
}
330
47
100
AcDbScale
 70
     0
300
1/8" = 1'-0"
140
0.125
141
12.0
290
     0
  0
SCALE
  5
5F
102
{ACAD_REACTORS
330
47
102
}
330
47
100
AcDbScale
 70
     0
300
3/16" = 1'-0"
140
0.1875
141
12.0
290
     0
  0
SCALE
  5
60
102
{ACAD_REACTORS
330
47
102
}
330
47
100
AcDbScale
 70
     0
300
1/4" = 1'-0"
140
0.25
141
12.0
290
     0
  0
SCALE
  5
61
102
{ACAD_REACTORS
330
47
102
}
330
47
100
AcDbScale
 70
     0
300
3/8" = 1'-0"
140
0.375
141
12.0
290
     0
  0
SCALE
  5
62
102
{ACAD_REACTORS
330
47
102
}
330
47
100
AcDbScale
 70
     0
300
1/2" = 1'-0"
140
0.5
141
12.0
290
     0
  0
SCALE
  5
63
102
{ACAD_REACTORS
330
47
102
}
330
47
100
AcDbScale
 70
     0
300
3/4" = 1'-0"
140
0.75
141
12.0
290
     0
  0
SCALE
  5
64
102
{ACAD_REACTORS
330
47
102
}
330
47
100
AcDbScale
 70
     0
300
1" = 1'-0"
140
1.0
141
12.0
290
     0
  0
SCALE
  5
65
102
{ACAD_REACTORS
330
47
102
}
330
47
100
AcDbScale
 70
     0
300
1-1/2" = 1'-0"
140
1.5
141
12.0
290
     0
  0
SCALE
  5
66
102
{ACAD_REACTORS
330
47
102
}
330
47
100
AcDbScale
 70
     0
300
3" = 1'-0"
140
3.0
141
12.0
290
     0
  0
SCALE
  5
67
102
{ACAD_REACTORS
330
47
102
}
330
47
100
AcDbScale
 70
     0
300
6" = 1'-0"
140
6.0
141
12.0
290
     0
  0
SCALE
  5
68
102
{ACAD_REACTORS
330
47
102
}
330
47
100
AcDbScale
 70
     0
300
1'-0" = 1'-0"
140
12.0
141
12.0
290
     0
  0
ENDSEC
  0
EOF
